2008/07/16


GUITARRA - EXERCÍCIOS PARA DESENVOLVER VELOCIDADE


Toque com Palheta e prenda as cordas com a seguinte sequencia de dedos 1 2 3 4 3 2


e-----------------------------------------------------------
B-----------------------------------------------------------
G-----------------------------------------------------------
D--------------------------------------9-10-11-12-11-10------
A--------------------9-10-11-12-11-10------------------------
E--9-10-11-12-11-10-----------------------------------------


e-------------------------------------9-10-11-12-11-10-----
B--------------------9-10-11-12-11-10----------------------
G--9-10-11-12-11-10-----------------------------------------
D-----------------------------------------------------------
A-----------------------------------------------------------
E-----------------------------------------------------------

Nenhum comentário: