2012/10/03

Aprenda violão e guitarra - Exercicios para obter agilidade e velocidade


Para esta aula preparamos vários exercícios para deixar os dedos mais ágeis e a musculatura da mão mais preparada para o violão. Aproveite e treine bastante, pois a medida que os dedos ficam mais fortes e resistentes melhor será sua performance ao praticar pestanas, solar e tocar acordes difíceis.

Então aí estão :

Este 1° exercício é puramente de digitação.
Use os dedos 1, 2, 3 e 4 (mão esquerda) alternando a ordem em que eles são tocados. Na mão direita, use os dedos I , M e A.
Exemplo: 
------------------------------------------------------------------
------------------------------------------------------------------
------------------------------------------------------------------
----------------------------------------(1)--(4)--(2)--(3)-------
--------------------(2)--(3)--(4)--(1)---------------------------
(1)--(3)--(2)--(4)-----------------------------------------------
 Continue o exercício trocando a ordem dos dedos. Tente as seguintes combinações:
        
         1 2 4 3      2 1 3 4      3 1 2 4      4 1 2 3    
         1 3 4 2      2 1 4 3      3 1 4 2      4 1 3 2
         1 4 3 2      2 3 1 4      3 2 1 4      4 2 1 3

Dica: Faça uma série da 6ª corda até a 1ª indo do começo ao fim do braço do violão. Comece lentamente e vá aumentando gradativamente a velocidade à medida que não haja erros.

Voltando agora para a mão direita, faça o seguinte: Deixe as cordas soltas e toque como explicado abaixo: 
----------A----
-------M-------
-----I---------
---------------
---------------
-P------------- 
Toque o polegar na 6° corda e depois seguidamente os dedos I, M, e A nas 3°, 2° e 1° cordas respectivamente.

O Polegar é tocado de cima para baixo e o restante dos dedos de baixo para cima, "puxando" as cordas.
Dica:
Quando tocar o Polegar faça como se estivesse "empurrando" a corda para frente e não apertando-a para baixo.
Toque primeiro o polegar na 6° corda mas depois faça o exercício usando a 5° e 4° cordas.

Comece lentamente e aumente a velocidade quando estiver seguro. Tente manter um ritmo ao fazer esse exercício. Faça também desta maneira:

P   I   M   A   M   I

Partiremos então para a escala maior:

Outras digitações: Em E (Mi Maior) 
----------------------------------------------------2--4--5-----
-------------------------------------------2--4--5--------------
----------------------------------1--2--4-----------------------
-------------------------1--2--4--------------------------------
----------------0--2--4-----------------------------------------
-------0--2--4--------------------------------------------------
Este próximo é em C(dó Maior) e está dividido em terças, toque uma nota e a próxima será uma terça acima dela. 
 -----------------------------------------------------------------
---------------------------------------------------------3-----5-
---------------------------------2------4----2----5----4-----5---
----------2------3---2---5---3-------5---------------------------
---3---------5---------------------------------------------------
-----------------------------------------------------------------

Faça esses dois últimos exercícios em todos os tons.

Nenhum comentário: