2008/12/16

CURSO DE VIOLÃO E GUITARRA - ESCALAS EXÓTICAS
Escala Espanhola (T - 2m - 3M - 4J - 5J - 5#- 7m)
Exemplo em C(C C# E F G G# A#)
e----------------------------------------9-12-13-------
B--------------------------------9-11-13---------------
G------------------------9-10-12-----------------------
D----------------8-10-11-------------------------------
A--------8-10-11---------------------------------------
E-8-9-12-----------------------------------------------
Escala Persa (T - 2m - 3M - 4J - 4# - 5# - 7M)
Exemplo em C(C C# E F F# G# B)
e---------------------------------------9-12-13--------
B-------------------------------9-12-13----------------
G-----------------------9-10-11------------------------
D---------------9-10-11--------------------------------
A--------8-9-11----------------------------------------
E-8-9-12-----------------------------------------------
Escala Egipcia (T - 2M - 4J - 5J - 7m)
Exemplo em C(C D F G A#)
e-----------------------------------------8-10-13------
B---------------------------------8-11-13--------------
G-------------------------7-10-12----------------------
D-----------------8-10-12------------------------------
A---------8-10-13--------------------------------------
E-8-10-13----------------------------------------------
Bons estudos e até a próxima!!!
www.artmaia.com

Nenhum comentário: