2008/12/20

AULAS DE GUITARRA - HABILIDADE E VELOCIDADE
Uma coisa que separa os bons guitarristas dos péssimos e ter boa habilidade nos dedos e sons limpos.É importante para o guitarrista iniciante ou intermediário praticar técnicas que irão aumentar a habilidade dos dedos.Abaixo estão algumas técnicas que irão fazer melhorar a habilidade e velocidade dos dedos.
Abaixo está um exercício básico para treino. Ele pode ser um pouquinho entediante.Mas, assegure-se de tocar as notas limpas e no tempo.Comece estudando vagarosamente. O objetivo é dar força na digitação,e você tem que começar devagar para conseguir isto. Aumente a velocidade aos poucos até você conseguir tocar em uma velocidade razoável. Toque descendo e subindo no braço da Guitarra.
---------------------------------------------------------------1-2-3-4-
-----------------------------------------------------1-2-3-4-----------
------------------------------------------1-2-3-4----------------------
----------------------------1-2-3-4------------------------------------
--------------1-2-3-4--------------------------------------------------
-1-2-3-4---------------------------------------------------------------
O próximo exercício é similar, somente tem um desenho diferente. Assegure-se de usar os 4 dedos e que os sons extraídos sejam limpos (sem chiados).
-1-4-2-3----------------------------------------------------------------
------------1-4-2-3-----------------------------------------------------
-------------------------1-4-2-3----------------------------------------
-------------------------------------1-4-2-3----------------------------
---------------------------------------------------1-4-2-3--------------
----------------------------------------------------------------1-4-2-3-
Abaixo está um riff simples para praticar sempre, subindo e descendo na escala da Guitarra.
---------------------------------------------------------------
---------------------------------------------------------------
----------6-7-9-7-6-----------6-7-9-7-6----------------------
---7-9------------------9-7-9---------------------------------
---------------------------------------------------------------
---------------------------------------------------------------
A partir do momento que você ganhar habilidade nos dedos, você estará preparado para começar a estudar Escalas e Modos. Abaixo um modo simples.
--------------------------------------------------12-13-15---
-------------------------------------12-13-15----------------
----------------------------12-13--------------------------- -
--------------12-14-15---------------------------------------
-12-14-15----------------------------------------------------
--------------------------------------------------------------
Agora vamos brincar um pouco. Perceba o desenho usado. Você pode usá-lo em todas as escalas e modos. Isto funciona para ganhar velocidade e habilidade nos dedos.
----------------------------------------------------------------------
----------------------------------------------------------------------
----------------------------------------------------------------------
-------------12----------12-14-----12-14-15--12-14-15-------------
-12-14-15----14-15---------15--------------------------------------
----------------------------------------------------------------------

-----------------------------------------------------------------------
------------------------------------12----------12-13----------------
--12---------12-14-----12-14----12-14----------14------------------
-------14-15-------15-------------------------------------------------
-----------------------------------------------------------------------
-----------------------------------------------------------------------

------------------------------12----------12-13-----12-13-15--------
-12-13-15--12-13-15------13-15----------15-------------------------
-----------------------------------------------------------------------
-----------------------------------------------------------------------
-----------------------------------------------------------------------
-----------------------------------------------------------------------
Você também pode tocar de trás para frente.É bom tocar essa sequência como aquecimento dos dedos. Assegure-se de fazer um aquecimento antes de tocar uma longa "jam session". Faça o aquecimento com os exercícios acima, ou praticando escalas.
Estes exercícios podem trazer grandes benefícios se os mesmos forem praticados corretamente.

www.artmaia.com

Nenhum comentário: